Orchid (Fragrant Thoroughwort)   
by Cheung Bat   i]

Here is a piece for Classical guitar composed by Cheung Bat from Hong Kong.
I believe it was written sometime within the 1970's and 1980's, at a time
when Country music was very popular in schools.

It doesn't have an English name - a more accurate translation is
Fragrant Thoroughwort and "" is its Chinese name. It is a popular Chinese
plant and there are many many varieties... and it's extremely expensive.

Should you have any question, please Email seadropseadrop@hotmail.com

21st June, 2001  14:56

Key Em  -  Slowly (but not too slow)
4/4

E||-----7--7--7--7--------5--|-----5--------0-----------|
B||--5-----------------0-----|--8-----8--7--------0-----|
G||-----------------0--------|-----------------0-----0--|
D||--------------------------|--------------------------|
A||--------------------------|--------------------------|
E||--0-----------0-----------|--0-----------0-----------|

     1  3  3  3  3        1     4  1  4  3



--12--12--12--12--12--------10--|--7--10--10--9--7-----------|
-------------------------0------|----------------------0-----|
----------------------0---------|-------------------0-----0--|
--------------------------------|----------------------------|
--------------------------------|----------------------------|
--0---------------0-------------|--0-------------0-----------|

  4               4          3     1  4    4  3  1



--7--12--12--10--7--------5--|--3--5--3--2--0-----------|
-----------------------0-----|-----------------------0--|
--------------------0--------|-----------------0--------|
-----------------------------|--------------------------|
-----------------------------|--------------------------|
--0--------------0-----------|--0-----------0-----0-----|

  1  4   4   3   1        4     2  4  2  1



-----3--3--2--0--------7--|--5-----------0-----------|--0----------------||
--0-----------------0-----|-----8--7-----------0-----|--0----------------||
-----------------0--------|-----------7-----7-----7--|--7----------------||
--------------------------|--------------------------|-------------------||
--------------------------|--------------------------|-------------------||
--0-----------0-----------|--0-----------0-----------|--0----------------||
                                                                      
     2  2  1           3     1  4  3  2     2     2     2