Endecha (Prelude in Bb) - Francisco Tarrega (1852-1909)
1st version - Carlos Cordero, with left-hand fingering
2nd version - Kevin J Manges, with left-hand fingering
******************************************************************************

Endecha (Prelude)
Author: Francisco Tarrega
Transcription By: Carlos Cordero
                  themaker39@hotmail.com
                  cachome@telcel.net.ve

                                  
                                 "Endecha"


Key Signature: B Flat
Time Signature: 2/4
Tablature Explanation At the End

    
  6 = D
                                  c7   c5--------------------------/
                                  
E||---5.---|--10-------------|-------------|-----------5--|--8--6----------|
B||--------|------10--8------|-------------|--5--7--8-----|-----5---10--8--|
G||--------|-------------10--|--9--7----7--|--------------|-----7----------|
D||--------|-----------------|-----7-------|--------------|----------------|
A||--------|-----------------|-----8-------|--------------|----------------|
D||--------|-----------------|--0----------|--------------|--5-------------|
      1        4   3  1   3     3  2    3        3  4        4  2   4   2
                                                             1  1
                                                                3


                                            c9      c10-----/ 
                                            
E|-------------|--------------|--0---6---5---9---|---12--10----13--|
B|-------------|-----------8--|------5---3--10---|---10------------|
G|--10--9--7---|--7---6----7--|--6-----------9---|---10------------|
D|-------------|--0--------8--|--7---5---3-------|-----------------|
A|-------------|------7-------|--------------0---|-----------------|
D|-------------|--8---7-------|------------------|---0-------------|
     4  3  1      1   1    3     1   4   4   2       3          4
                  2   3    1     2   2   2           
                      2    2         1   1           


       c8------/                                           c2  c3------/
     
E|--12--8---10-------|-----0--1-----|----------------|------3---5---6--|
B|-----10---11---10--|--8--------4--|--3----------2--|--3---2---3---3--|
G|-------------------|-----3--2-----|-----2---3---0--|--2-----------3--|
D|-----------8-------|--------3-----|-----0---0------|--3---2---3---5--|
A|------8------------|-----3--------|-------------1--|--0--------------|
D|-------------------|--------------|-----4---5------|-----------------|
    3   3    3    4     2  4  1  4     2  1   1   3     3   2   3   4     
             4             3  2           3   3   1     1           3    
                              3                         2        
                                                            

1------------/  2---------------------/

E|---------5--|| |-----------|----------|
B|--2---------|| |--2--------|--3.------|
G|--2---------|| |--2--------|--2.------|  End.
D|--2---------|| |--2--------|--3.------|
A|--0---------|| |--0--------|----------|
D|------------|| |-----------|--0.------|
    3      4        3           3
    2               2           1
    1               1           2



---------------------------------------------------------

Tablature Explanation.

                    1--------/ 2---------/ cx--------/

E||-------------|| |-----------|-----------|------------|
B||-------------|| |-----------|-----------|------------|
G||---repeat.---|| |--first----|--second---|--bar on----| 
D||-------------|| |---ending--|---ending--|----x-fret--|
A||-------------|| |-----------|-----------|------------|
D||-------------|| |-----------|-----------|------------|


                          "Endecha" 
                       Francisco Tarrega


Tab By: Carlos Cordero
        themaker39@hotmail.com
        cachome@telcel.net.ve

Enjoy!!


******************************************************************************
******************************************************************************


#----------------------------------PLEASE NOTE-------------------------------#
#This file is the author's own work and represents his interpretation of the #
#song. You may only use this file for private study, scholarship, or research#
#----------------------------------------------------------------------------#
==============================================================================
         Title : Endecha (Prelude)
        Artist : Francisco Tarrega
Transcribed by : Kevin J. Manges (braumstr@bright.net)
                 (formerly braumeister@centuryinter.net & kevinm2556@aol.com)
         Notes : This is best viewed in Courier New, 10pt font.
     Difficulty: Easy
           Date: 20 May 99
==============================================================================

Legend
------
Fret position shown above staff.
Finger selection shown below staff.
/  = slide up/down

                                  Endecha (Prelude) 


Transcribed by Kevin Manges                                  Francisco Tarrega
(braumstr@bright.net)


                                                                 V---
E||-------5/-|--10-------------|-------------|---------------|--8--6----------|
B||----------|------10--8------|-------------|-----7--8--10--|-----5---8/-10--|
G||*---------|-------------10\-|--9--7----7--|--9------------|-----7----------|
D||*---------|-----------------|-----7-------|---------------|----------------|
A||----------|-----------------|-----8-------|---------------|----------------|
D||----------|-----------------|--0----------|---------------|--5-------------|
          4      4   3  1   3     3  1    1     3  1  2  4      4  2   4   4
                                     1                          1  1
                                     2                             3



                                     V III IX     X
E|---------------|-------------|--0--6--5--9---|--12--10----13\-|
B|--8------------|----------8--|-----5--3--10--|--10------------|
G|-----10--9--7--|--7\-6----7\-|--6--------9---|--10------------|
D|---------------|--0-------8\-|--7--5--3------|----------------|
A|---------------|-----7-------|-----------0---|----------------|
D|---------------|--8\-7-------|---------------|--0-------------|
    2  4   3  1     1  1    3     1  2  3  1      3    1    4
                    2  3    1     2  1  1  2      1
                       2    2        1  1  1      1



       VIII--                                          III V---   1.---------
E|--12--8---10------|-----0--1-----|--------------|-----3--5--6--|---------5/-|
B|------10--11\-10--|--8--------4--|--3--------2/-|--3--2--3--3--|--2---------|
G|------------------|-----3--2-----|-----2/-3--0--|--2--------3--|--2--------*|
D|----------8-------|--------3-----|-----0--0-----|--3--2--3--5--|--2--------*|
A|------8-----------|-----3--------|-----------1--|--0-----------|--0---------|
D|------------------|--------------|-----4/-5-----|--------------|------------|
    4   1   3    4    2   4  1  4     2  1  1  3     3  2  3  4     1      4
        3   4             3  2           3  3  1     1  1  1  1     1
        1   1                3                       2  1  1  1     1
                                                              3


  2.---------------------
E|-----------|-----------||
B|--2--------|--3--------||
G|--2--------|--2--------||
D|--2--------|--3--------||
A|--0--------|-----------||
D|-----------|--0--------||
    3           3
    2           1
    1           2


Transcribed by Kevin J. Manges
Tarrega:  Endecha (Prelude)


******************************************************************************
******************************************************************************