Estudio No 1 - Giulio Regondi (1822/231872)

original Guitar Pro tab by MQ
text version by Weed - weed@wussu.com (29 December 2005)

   p  = pull-off
   tr = trill

   tuning - E A D G B E

1
E||--0--1p0----------------0-1-3p0-|--1--5-3-1p0-------------------------|
B||---------3-1p0------1-3---------|-------------3-1-0-------------0-1-3-|
G||--0------------2-0--------------|--2----------------0-2-0---0-2-------|
D||--------------------------------|--0--------------0-------4-----------|
A||--3--------------3--------------|-------------------------------------|
E||-----------------0--------------|-----------------3-------------------|

3
--0-----0-0-----0-0-----0-3------1-|--0-3-8-7-5-----------------------|
------1-------3-------1--------3---|--1---------8p6-5-3-1p0-----------|
----0-------1-------2--------2-----|--0---------------0-----2-0-------|
-----------------------------------|------------------0---------3-2p0-|
--3-------2-------0----------------|------------------2---------------|
--------------------------1--------|--3-------------------------------|

5
--0--1p0----------------0-1-3p0-|--1--5-3-1p0-------------------------|
---------3-1p0------1-3---------|-------------3-1-0-------------0-1-3-|
--0------------2-0--------------|--2----------------0-2-0---0-2-------|
--------------------------------|--0--------------0-------4-----------|
--3--------------3--------------|-------------------------------------|
-----------------0--------------|-----------------3-------------------|

7
--0-----0-0-----0-0-----0-3------1-|--0-----------------------------0-|
------1-------3-------1--------3---|----------------3-1-----------1---|
----0-------1-------2--------2-----|----0---0-1-2-3-4-------0---0-----|
-----------------------------------|------4---------------2---4-------|
--3-------2-------0----------------|--------------------3-------------|
--------------------------1--------|--3-------------------------------|

9                                                  tr
-----0-----------7-5p3-----------|-----0---------------------------|
--3----3-1p0-----0-----7-5-3-----|--1----3-1-0---------------------|
--0----------2-0-0-----------5p4-|--0----------2-0-------------0-2-|
---------------------------------|--2--------------4-0---0-2-4-----|
--2------------------------------|--0--------------5---4-----------|
-----------------0---------------|---------------------------------|

11
------------------3-----3-7-----5-|--2----53-2-----0----5-3-2-0-----|
--0-----0-3-----3-----0-------5---|------3-------2---3----------3-2-|
------0-------2-----0-------6-----|----2-------0--------------------|
----0-------0---------------------|--0---------------4--------------|
--------------------------0-------|----------0-------5--------------|
--3-------2-------0---------------|---------------------------------|

13
-----0-----------7-5-3---0-------|--------3-2-----0-0---------------|
--3----3-1-0-----0-----7---3-2-0-|------------------------3-3-----2-|
--0----------2-0-0---------------|--3---------------------------0---|
---------------------------------|------2-------2-------4-----------|
--2------------------------------|----4-------1-------2-------------|
-----------------0---------------|----------------------------0-----|

15
--2---3-2-0-----------------------|------------7-10-9-7------------|
------0-----3-2-0-----------------|----------7----------8-7--------|
------------------3-0-------------|--------7----------------7------|
------0---------------4-3-4-2---0-|------9--------------------9----|
------------------4-----------4---|----9---------------------------|
----2-------------2---------------|--7-----------------------------|

17
--7----------0----7-8-------5-------|--5-----------3-5-7-------3-------|
---------------10---------5---5-----|------------3---------0-3---3-0---|
----9-7-9----7----------5-------5---|----7-5-7---5-------0-------------|
----------------------7-------------|--0-------4-----------------------|
----------11----------------------0-|----------------------------------|
--0---------------------------------|--------------------------------3-|

19
--2-----------3-2-0-----------2-0-|--------------0-2-5-------3---12---|
----1---1---1-------0---0---0-----|--4---------0-------0---0---0----0-|
------2-----2---------0-----0-----|----2---2---2---------0-----0----0-|
----------2---------------2-------|------4-------------------2--------|
--0---------------2---------------|--2-------2------------------------|
----------------------------------|------------------0----------------|

21
--2-------5---8---7---3---0-------|--------------3-2-2-3-2-------0-------|
----1---1---7---7---0---0-----1---|--0---------4-----------0---0---0-----|
------------5---5---0---0---0---0-|----2---2-----------------0-------0---|
----2---2-------------------2---2-|------1-----------------------------2-|
------0-------0-------2-------2---|----------2---------------------------|
----------------------------------|------------------0-------------------|

23
--0---------------0---------------|--3---------2-1-2-5---------3-2-0-|
------------3-2-3-----------3-2-3-|----1---1-----------0---0---------|
----2---2-----------0---0---------|----------------------------------|
------4---------------0-----------|------0---------------0-----------|
--3-------3-------2-------2-------|--0-------0-----------------------|
----------------------------------|------------------3-------3-------|

25
--0---------------0---------------|--3---------2-1-2-5---------3-2-1-|
------------3-2-3-----------3-1-3-|----1---1-----------0---0---------|
----2---2-----------0---0---------|----------------------------------|
------4---------------0-----------|------0---------------0-----------|
--3-------3-------2-------2-------|--0-------0-----------------------|
----------------------------------|------------------3-------3-------|

27
--1---------0---0-2---------0---0-|--5---------4-3-4-7---------5-4-5-|
----0---0-----4---------------4---|----3---3-------------------------|
------1-------------2---2---------|--------------------5---5---------|
--0-------0-----------2-----------|------2---------------7-----------|
------------------3-------3-------|--2-------2-------0-------0-------|
----------------------------------|----------------------------------|

29
--5---------3-2-3-5---------------|--8---------7-6-7-10---------8-0-3-|
----0---0-------------------8-7-8-|----7---7--------------------------|
------0-------------5---5---------|------0--------------9-0-9---------|
--3-------3-----------5-----------|--0-------0------------------------|
------------------7-------7-------|-----------------------------------|
----------------------------------|------------------8--------8-------|

31
--7---------5-----0---------3-7-5-|--5-3---0-3-1-----0---------------|
--------------------1---1---------|------3-------0-1---3-0---0-------|
----7---7-----5-7-----0-----------|------4-------0---------0---2-----|
------7---------------------------|------3-------0---------------3-0-|
--8-------8-----------------------|------------------------------2---|
------------------3-------3-------|------3---------------3-----------|

33
--0--1p0----------------0-1-3p0-|--1--5-3-1p0-------------------------|
---------3-1p0------1-3---------|-------------3-1-0-------------0-1-3-|
--0------------2-0--------------|--2----------------0-2-0---0-2-------|
--------------------------------|--0--------------0-------4-----------|
--3--------------3--------------|-------------------------------------|
-----------------0--------------|-----------------3-------------------|

35
--0-----0-0-----0-0-----0-3------1-|--0-3-8-7-5-----------------------|
------1-------3-------1--------3---|--1---------8p6-5-3-1p0-----------|
----0-------1-------2--------2-----|--0---------------0-----2-0-------|
-----------------------------------|------------------0---------3-2p0-|
--3-------2-------0----------------|------------------2---------------|
--------------------------1--------|--3-------------------------------|

37
--0--1p0----------------0-1-3p0-|--1--5-3-1p0-------------------------|
---------3-1p0------1-3---------|-------------3-1-0-------------0-1-3-|
--0------------2-0--------------|--2----------------0-2-0---0-2-------|
--------------------------------|--0--------------0-------4-----------|
--3--------------3--------------|-------------------------------------|
-----------------0--------------|-----------------3-------------------|

39
--0-----0-0-----0-0-----0-3------1-|--0-------------------------------0-2-|
------1-------3-------1--------3---|--------------------3-1-------1-3-----|
----0-------1-------2--------2-----|----0-2-0---0-1-2-3-4-------0---------|
-----------------------------------|----------4---------------2-----------|
--3-------2-------0----------------|------------------------3-------------|
--------------------------1--------|--3-----------------------------------|

41         tr                              tr
--3--5-3-2-0-----------0-2-3-4-5-|--6--8-6-5---------------5-6-7-8-|
-------------3-2-3-2-3-----------|-----------8-6-5-6-5-6-8---------|
--2------------------------------|--5--------------5---------------|
-----------------0---------------|-----------------7---------------|
--4------0-----------------------|--7--------------8---------------|
---------------------------------|---------------------------------|

43
--10--12-10-8---------12--8--5--1--|--0--5-3-0131-0-1----------------5-|
--0-----------12-10-8-----5--------|--1---------------3-1--1-3-5-6-8---|
--10----------------------0-----2--|--0------0----------0--------------|
-----------------------------------|--------------------2--------------|
--10----------------------------3--|--------------------3--------------|
--------------------------8-----1--|--3------3-------------------------|

45       tr                                 tr
--6--8-6-5-------------------5-6-|--8--10-8-7------------------7-8-10-12-|
-----------8-6-5-6-----5-6-8-----|------------10-8-7-8--7-8-10-----------|
-----------------5-5-7-----------|--7----------------7-------------------|
-----------------7---------------|-------------------9-------------------|
--7--------------8---------------|--9----------------10------------------|
---------------------------------|---------------------------------------|

47          tr                                       tr
--13--15-13-12-10-------10-8------7-5-----|--3-3-5-3-1-0---------------------|
--12--------------13-12------8--9-----1-3-|--1-----------3-1-0---------------|
--------------------------------------2---|--0---------------0-2-0---0-------|
--12-------------------------10-----------|------------------0-----4---3-2-0-|
--10--------------------------------------|----------------------------------|
-----------------------------0--------1---|--3---------------3---------------|

49
------------------------------|--------------0-1-3--4--5--7--|
---------------------------0--|--1-----0-1-3--------3-----6--|
------------------0--1--2--0--|--0-0-2--------------4-----7--|
--------------2-3----0-----3--|--2------------------------5--|
--3-----2-3-5--------2--------|--3---------------------------|
----3-5--------------------3--|------------------------------|

51
--8--12-8-----8-----------------0-----|------------3-0-----0-------------|
----------8-----8------8----------1---|----1-----1-----1-----1-----1-----|
--9---------9-----9------9----0-----0-|------0-----------0-----0-----0---|
--------------------10-----10---------|--2-----2-----------------2-----2-|
--10----------------------------------|----------------------------------|
--8-----------------------------------|----------------------------------|

53
------------8---------|-------------------||
------------5---------|--1----------------||
-------0----0----0----|--0----------------||
----------------------|--2----------------||
--3-------------------|--3----------------||
-------3----8----3----|-------------------||