Adagio - Sonata n 1 in G Minor BWV 1001
Johann Sebastian Bach

Dramatic and intense piece of music. For the preferable sound, tune your
classical piece of wood to "D G C F A D". But of course, you may play
"E A D G B E" aswell. Give the piece a spiritual intense feeling, good luck!

*********************************
Corrections made 22 february 2000
*********************************

Roger Margido Proeis
Classical Guitarist
iactive@online.no
	
Time Signature: 4/4

|-5-3---0--------------------------------|
|-----6---3---0-1---3-------------0-3-1--|
|-5---------5-----2-2-1-------1-2--------|
|-2---------------------4-2-4------------|
|-0-----------------2--------------------|
|----------------------------------------|
  R                 R

|-4-------------------------------5----------------|
|-3---5p3---3-5-3-5-3-5p3---3-5-0-5---------5h6----|
|---------5---------------5-------5---4h5h7-----5--|
|-2-------------------------------2-7--------------|
|---------------------------------0-------------0--|
|---0----------------------------------------------|
  R                               R

|-------0-0-8-4-5-1p0-------------------0-------0--------------|
|---0-6-----5---5-----3p1-3p0h1-----------3---3-----5---5------|
|-5-----------------------------1h2---------5-----7---7---7-5--|
|-----------------------------------2h3------------------------|
|--------------------------------------------------------------|
|-3---------0---1----------------------------------------------|
            R   R

|-5---5---5---5---7-----0-4-7-5----|
|-5-9---9---9---9---3-1---------1--|
|-------------------------------0--|
|----------------------------------|
|-7-------------------0---------0--|
|-------------------0--------------|
  R

|---8-7-5-5-3-5-3-3-2-3---3-0-1-8-5-5----|
|-----------------------0-1-----------6--|
|-4---------------------------------5----|
|---------------------2-0-------------7--|
|-6-----------------------0--------------|
|----------------------------------------|
                          R

|-----7---7-5-3---0-----5-2-0-----5--|
|-6p4-----------7-----5-------4------|
|-------------------------------4----|
|------------------------------------|
|-0-------------------------2--------|
|-------3-----------2----------------|


|---5-3-5-2-3---------3-2-3p2h3p2-----7-8--------|
|-------------0-0-----------------8-10----7-8-10-|
|-------------------2----------------------------|
|-----------2-0---2------------------------------|
|---------------3-------0------------------------|
|-0----------------------------------------------|


|-0-------------0-0-------0-2-3-5-2-0---0---0---0---0--|
|-------------------4-2-4-------------4---4---4---4----|
|---8--------------------------------------------------|
|-7---7-5-7-4-5----------------------------------------|
|-----------------2-----------------2------------------|
|-7-----------0----------------------------------------|
  R

|---------0---------------------------------0---4--------------|
|-5p4h5-----3-1-0h1-0h1-3---3---3---------6---6---6-5-------0--|
|-------------------------5---5---5-4h5-7-------------7-5-7----|
|-2-------------------------------------6----------------------|
|--------------------------------------------------------------|
|-------0-------------------------------7----------------------|


|-5-------0-5-3-1-0----------------------------------|
|-5-----1-----------3-1-0-------0---2----------------|
|-4-5-2-------------------2-1-2-2-1-0-2-3-2-0---0----|
|---------------------------------------------3---2--|
|-0---------------------------------0----------------|
|-----------1-------------------0--------------------|
				        R

|---0-0---1-0-0-1-1-0---------3-5h6-----6--|
|-2-----3---------------3-5-6--------------|
|---------0---2---0---5-------------5------|
|-0---3-------------------------------2----|
|-----------------1------------------------|
|------------------------------------------|


|---6-5---------------6-5-3-1-0h1p1h0h1p0-1--|
|-------4-----1-4---3-3----------------------|
|-----------2---------0-----0----------------|
|-3-------3----------------------------------|
|-----------------1---------3----------------|
|--------------------------------------------|


|-1-----------0-3-6-5-5-6h5-4h5----------------------------|
|-----------2---------3---------5h6---------6-5-6p5--------|
|-1-----0-3-------------------------6h7-------------7-6-7--|
|-----2---------------3-----------------6h7----------------|
|-2-4------------------------------------------------------|
|----------------------------------------------------------|
                      R

|-----------------------------------3---------------------------0-3-1--|
|-----------------------------3---3---3---3---3---3---0---0-2-3--------|
|-7-5p3-2-------------------2-----------6---6---6---6---2--------------|
|-0-------5-3-2-----0---0-3-----2--------------------------------------|
|---------------5-4---0---------------0--------------------------------|
|----------------------------------------------------------------------|


|-3---6-5---5-----0-0-----------5h6----|
|-2-------8---8-6-----6---5h6h8-----6--|
|-2---------------------7-----------3--|
|-------------------0---------------0--|
|-0-0----------------------------------|
|--------------------------------------|
  R

|---0-6-5-5-5-----------------------5---5---5--------|
|-6---------6---10----------8-106-8---8---8---8-6-8--|
|-0-----------6-7---------7--------------------------|
|-----------7---8-108-7-8----------------------------|
|-3---------0----------------------------------------|
|---------------6------------------------------------|


|-5---3-3-------3-6-5-6-5-6-----5--|
|-3-2-5-5---2-5-------------8-6-6--|
|-2-----2-2---------------------7--|
|---------0---------------------0--|
|-0-----4--------------------------|
|----------------------------------|
        R                       R

|-7-0---0---------------------------------------6----|
|-6---3---3p1-3p0-1-------------------------6-----9--|
|-------------------4p2p1-2-----------5-2-3---7-7----|
|---------------------------2-------3-------------9--|
|-----------------0-----------3h0-5------------------|
|-4--------------------------------------------------|
  R

|-----7---0---0--------------------------------|
|-9-10--9-------3-1-0-1-------3-0-----------3--|
|-----------------------2---2-----2-1h2p1------|
|---------0-------------------------------2----|
|-7---------3-------------2--------------------|
|---------------------------------0------------|


|----------------------------------------------|
|---3-1-3p0-1p0h1-----------------------2-3-6--|
|-----------------------------------2-3--------|
|-------------------------------2-3------------|
|-0---------------0-2-5p3-5p3h5----------------|
|----------------------------------------------|


|-5-4-8-7p5/4-5-5-------------7-8p7-8---6-4/5-5--|-5---5---5---5---5----|
|-0-------------0-------7-9-10--------10---------|---9---9---9---9-3-1--|
|-------------------7h9--------------------------|-----------------2----|
|-0---------------10-----------------------------|-----------------2----|
|-------------6-7-----------------------------7--|-7---------------0----|
|------------------------------------------------|----------------------|
                                                                   R
								              

Roger Margido Proeis