Symphony No 9 - theme (Ode To Joy) - Ludwig Van Beethoven (1770-1827)
4 versions - all in C
1st by Carlos Cordero in C (+LHF), 2nd by Kevin J Manges in C (+LFH),
3rd by 'Xelard(Dave)' in C, 4th by Berzerker
*********************************************************************

Ode To Joy - Finale Of Symphony No.9 in D minor
Author: Ludwig Van Beethoven
Op.125 (1817-1823) Original in D
Tablature by: Carlos Cordero
              cachome@telcel.net.ve
              http://www.geocities.com/vienna/waltz/2067/


[Transcription by Jerry Snyder]


                              "Ode To Joy"
                  Finale of Symphony No.9 in D minor


Allegro Assai
Key Signature: C Major (original key D)
Time Signature: 4/4
Tablature Explanation At The End.



E|-0--0---1--3-|-3--1--0----|----------0-|-0--------|-0--0---1--3-|-3--1--0----|
B|-------------|-0--------3-|-1--1--3----|------3-3-|-------------|-0--------3-|
G|-0-----------|------------|----------0-|-0--------|-0-----------|------------|
D|--------0--2-|-2--0-------|-2--2--3----|--------3-|--------0--2-|-2--0-------|
A|-3--3--------|-------3--2-|-3----------|----------|-3--3--------|-------3--2-|
E|-------------|------------|------------|-3--------|-------------|------------|
   3  3   1  4   4  1  3  4   1  1  4      2    4 4   3  3   1  4   4  1  3  4
             2   2        2   2  2  3             3             2   2        2
                              3

E-|----------0-|----------||--------0----|----0-1-0----|----0-1-0----|----------0-|
B-|-1--1--3----|-3----1-1-||--3--3-----1-|-3---------1-|-3---------3-|-1--3-----1-|
G-|----------0-|----------||*-0-----0----|-0------0----|-0------1----|-2--2--0----|
D-|-2--2--3----|-3------2-||*------------|-------------|-------------|-------0----|
A-|-3----------|--------3-||--2-----3----|-2------3----|-2------2----|-0----------|
E-|------------|-3--------||-------------|-------------|-------------|----2--3----|
    1     4      4    1 1     4  4  3  1   4    1 3  1   4    1 1  4   1  4  3  1  
    2     3      3      2     2            2             2      2      2  3
    3            2      3                                                 2
                                          1---------|   2--------|

E-|-0--0--1--3-|-3--1--0----|----------0-|-----------|| |----------|
B-|-1-----3----|-0-----0--3-|-1--1--3----|-3----1-1--|| |-3----1-1-|
G-|------------|------------|-0--------0-|----------*|| |----------| Fine
D-|------------|------------|-2-----3----|-3------2-*|| |-3------2-|
A-|-3-----3----|------------|------------|--------3--|| |--------3-|
E-|------------|-3-----3----|------------|-3---------|| |-3--------|
    1     1      4 1   3  4   1  2  4      4      1      
    3     4      3            2     3      3      2
          3                                2      3


********************************************************************
********************************************************************


Tablature Explanation:
                                                                 cx------/

E-||------------|| |-------|---------|----(7----|-------|---------|---------|
B-||------------|| |-------|---------|----)7----|-------|---------|---------|
G-||*--repeat--*|| |--5/7--|--12p10--|----(5----|--1h4--|--<12>---|---------|
D-||*----------*|| |-------|---------|----)6----|-------|---------|---------|
A-||------------|| |-------|---------|----(6----|-------|---------|---------|
E-||------------|| |-------|---------|----)7----|-------|---------|---------|
                     Slur     pull     arpegiate  Hammer  Harmonic   Bar on
                              off                  on                x fret


......................................................_

E-|---Author:-Ludwing-Van-Beethoven----------------|
B-|---Transcription-by:-Carlos-Cordero-------------|
G-|---E-Mail:-cachome@telcel.net.ve----------------|   
D-|---Look-More-Classical-Guitar-Tabs-at:----------|
A-|---http://www.geocities.com/vienna/waltz/2067---|
E-|---Enjoy!---------------------------------------|
......................................................_

#----------------------------------PLEASE NOTE------------------------------#
#This file is the author's own work and represents their interpretation of  #
#the song. You may only use this file for private study, scholarship, or    # #research.                                                                  #
#---------------------------------------------------------------------------#
=============================================================================
          Title: Freude Schoner Gotterfunken from 9th Symphony Op.125
         Artist: Ludwig van Beethoven
 Transcribed by: Kevin J. Manges, braumstr@bright.net 
                 (formerly braumeister@centuryinter.net & Kevinm2556@aol.com)
Downloaded from: http://members.tripod.com/~Braumeister/index.htm 
           Note: See MIDI/MP3 here also.
     Difficulty: Easy.
           Date: 13 Feb 99 1736
=============================================================================  

Freude Schoner Gotterfunken


Transcribed by Kevin J. Manges                              Ludwig von Beethoven


E||---0-----0-----1-----3-----|--3-----1-----0-----------|
B||---------------------------|--------------------3-----|
G||*-----0-----0-----0-----0--|-----0-----0-----0-----0--|
D||*--------------0-----------|--------------------------|
A||---3-----------------------|--2-----------------------|
E||---------------------------|--------------3-----------|
      3           1     4        4     1     3     4
                                 2



E|--------------------0-----|--0--------------------|--0-----0-----1-----3-----|
B|--1-----1-----3-----------|-----------3--3--------|--------------------------|
G|-----0-----0-----0-----0--|-----0--------0--------|-----0-----0-----0-----0--|
D|--------------------------|--------2-----0--------|--------------0-----------|
A|--3-----------2-----------|--3--------------------|--3-----------------------|
E|--------------------------|--------------3--------|--------------------------|
    1           4              3     2     4
    3           2                          3


E|--3-----1-----0-----------|--------------------0-----|-----------------------|
B|--------------------3-----|--1-----1-----3-----------|--3--------1--1--------|
G|-----0-----0-----0-----0--|-----------------------0--|-----0--------0--------|
D|--------------------------|-----2-----2-----0--------|--------------2--------|
A|--2-----------------------|--0-----------2-----------|--2-----------3--------|
E|--------------3-----------|--------------------------|--------3--------------|





E|------------0----------|-------0--1--0----------|-------0--1--0---------|
B|--3----3----------1----|--3----------1-----1----|--3----------0----3----|
G|----0----0-----0--0----|----0--0--2--------0----|-------0--2-------1----|
D|-----------------------|-------------2p-0--2----|-----------------------|
A|------------------3----|-------------------3----|-----------------------|
E|--3----1----0----------|--3---------------------|--3----------0----0----|
                                                                     4
                                                                     1


E|-----------------0----|-------0----1----3----|--3----1----0---------|
B|--1----3--------------|-------1---------0----|------------0----3----|
G|--2----2----0---------|-------0----2---------|--0---------0---------|
D|-------0----0---------|------------0---------|----------------------|
A|--0-------------------|--3-------------------|--2-------------------|
E|-------2----3---------|----------------------|------------3---------|
    1    4    3
    2    2
         1

E|-----------------0----|------------------------||
B|--1----1----3----1----|--3--------1--1---------||
G|--2----2----0---------|--0-----------0--------*||
D|--2-------------------|-----0--------2--------*||
A|--0---------2----3----|--2-----------3---------||
E|----------------------|--------3---------------||


********************************************

#----------------------------PLEASE NOTE---------------------------------#
# This file is the author's own work and represents their interpretation #
# of the song. You may only use this file for private study, scholarship #
# or research.                                                           #
#-----------------------------------------------------------------------##

From: dao002@acad.drake.edu (Xelard(Dave))
Subject: TAB:Beethoven's ninth(part)
Date: 5 May 94 21:55:18 GMT
Nntp-Posting-Host: acad.drake.edu

Ode to Joy
>From Beethoven's ninth
>From Guitar, December 1993

sorry about how cramped it was, but it seemed like a good idea
when I started typing it in.

       repeat once                       |--1st time|2nd time   
------------------|0-0-1-3-3-1-0---------0-0--------|---------
-----------------o|--------------3-1-1-3------33---o|3--11----
--0-0-0-0-0-0-0-0-|-0-0-0-0-0-0-0-0-0-0-0-0-0---0-0-|-0---0-0-
---2---2---3---3--|--2---2---0---0---2---2---0---0--|--0---2--
-3---3---3---3---o|3---3---2---2---0---0-----------o|----3----
------------------|------------------------3---3----|3--------

-----0-----010-----010-----------
-3-3---1-3-----1-3-----3-1-3-----
--0-0-0-0-0---0-0-0---1-12-2-0---
---0---2-------2---------2-0-0---
-2---3---2---3---2-------0-------
---------------------0-----2-3---

0-0-1-3-3-1-0---------0--------
--------------3-1-1-3--3--11---
-0-0-0-0-0-0-0-0-0-0-0--0--0---
--2---2---0---0---2---2--0-2---
3---3---2---2---0---0------3---
-----------------------3-------

If you want I can post the first part of Beethoven's fifth.  I have
actually tabbed that one out for one guitar.

********************************************

#----------------------------------PLEASE NOTE---------------------------------#
#This file is the author's own work and represents their interpretation of the #
#song. You may only use this file for private study, scholarship, or research. #
#------------------------------------------------------------------------------##
From: yrashid@gpu.srv.ualberta.ca (Berzerker)

For whoever it was that requested classical tab:
This is Beethoven's Ode to Joy.
Play with PIMA folk picking and just let yer finger fly, it is
fun and fairly easy to play.  Hope you like it as much as me...

Ode to Joy (From Beethoven's Ninth Symphony)
music by : Ludwig van Beethoven
 
e|--------------------------------|------------------------------------|
B|--------------------------------|------------------------------------|
G|-----0-------0-------0-------0--|-----0-------0-------0-------0------|
D|---------2---------------2------|---------3---------------3----------|
A|-3---------------3--------------|-3---------------3------------------|
E|--------------------------------|------------------------------------|
   p   i   p   i   p   i   p   i
 
 
e|--------------------------------|------------------------------------|
B|--------------------------------|------------------------------------|
G|-----0-------0-------0-------0--|-----0-------0-------0-------0------|
D|---------2---------------2------|---------3---------------3----------|
A|-3---------------3--------------|-3---------------3------------------|
E|--------------------------------|------------------------------------|
 
 
e|-0-------0-------1-------3------|-3-------1-------0------------------|
B|--------------------------------|-------------------------3----------|
G|-----0-------0-------0-------0--|-----0-------0-------0-------0------|
D|---------2---------------2------|---------0---------------0----------|
A|-3---------------3--------------|-2---------------2------------------|
E|--------------------------------|------------------------------------|
 
 
e|-------------------------0------|-0----------------------------------|
B|-1-------1-------3--------------|-------------3---3------------------|
G|-----0-------0-------0-------0--|-----0---------------0-------0------|
D|---------2---------------2------|---------0---------------0----------|
A|-0---------------0--------------|------------------------------------|
E|--------------------------------|-3---------------3------------------|
 
 
e|-0-------0-------1-------3------|-3-------1-------0------------------|
B|--------------------------------|-------------------------3----------|
G|-----0-------0-------0-------0--|-----0-------0-------0-------0------|
D|---------2---------------2------|---------0---------------0----------|
A|-3---------------3--------------|-2---------------2------------------|
E|--------------------------------|------------------------------------|
 
 
e|-------------------------0------|------------------------------------|
B|-1-------1-------3--------------|-3-----------1---1------------------|
G|-----0-------0-------0-------0--|-----0---------------0-------0------|
D|---------2---------------2------|---------0---------------2----------|
A|-0---------------0--------------|-----------------3------------------|
E|--------------------------------|-3----------------------------------|
 
 
e|-----------------0--------------|---------0^--1---0------------------|
B|-3-------3---------------1------|-3-----------------------1----------|
G|-----0-------0-------0-------0--|-----0---------------0-------0------|
D|---------0---------------2------|-------------------------2----------|
A|-2---------------3--------------|-2---------------3------------------|
E|--------------------------------|------------------------------------|
 
 
e|---------0^--1---0--------------|------------------------------------|
B|-3-----------------------3------|-1-------3--------------------------|
G|-----0---------------1-------1--|-2-------2-------0------------------|
D|--------------------------------|-2-------0-------0------------------|
A|-2------------------------------|-0----------------------------------|
E|-----------------0--------------|---------2-------3------------------|
....................................(BeRzErKeR!?!?'s favorite part)
 
 
e|-0-------0-------1-------3------|-3-------1-------0------------------|
B|--------------------------------|-------------------------3----------|
G|-----0-------0-------0-------0--|-----0-------0-------0-------0------|
D|---------2---------------2------|---------0---------------0----------|
A|-3---------------3--------------|-2---------------2------------------|
E|--------------------------------|------------------------------------|
 
 
e|-------------------------0------|------------------------------------|
B|-1-------1-------3--------------|-3-----------1---1------------------|
G|-----0-------0-------0-------0--|-----0-----------0------------------|
D|---------2---------------2------|---------0-------2------------------|
A|-0---------------0--------------|-----------------3------------------|
E|--------------------------------|-3----------------------------------|
 
 
I hope it is accurate.  That is how I remember playing it anyways.

Tabs for the masses!
The BeRzErKeR!?!?