*******************************************************************************
           CINCO PRELUDIOS (No. 2, Preludio TristÚn)

                                                    Maximo Diego Pujol (b.1957)

Tabbed by Dirk "Dimman" Roth - November 2006
(dimman@arcor.de)
*******************************************************************************

Standard Tuning

E||-----------------------|-----------------------|-----------------------|
B||--------------0--------|--------------1--------|--------------2--------|
G||-----------0-----------|-----------0-----------|-----------0-----------|
D||-----1--2--------------|-----1--2--------------|-----1--2--------------|
A||-----------------------|-----------------------|-----------------------|
E||--0--------------------|--0--------------------|--0--------------------|


|-----------------------||---3-------------2--0--2--|--3-------------------|
|--------------1--------||------------0-------------|-----------0----------|
|-----------0-----------||*--------0----------------|--------0-------------|
|-----1--2--------------||*-----2-------------------|-----2----------------|
|-----------------------||--------------------------|--3-------------------|
|--0--------------------||---0----------------------|----------------------|


|--3--------2----0--------|-----------------------|-----------0-----------|
|--------3----------3--1--|--0---------------0----|--1--------------------|
|-----2-------------------|-----------0-----------|--------0---------5----|
|--0----------------------|--------2--------------|-----2-----------------|
|-------------------------|-----2-----------------|--0--------------------|
|-------------------------|--0--------------------|-----------------------|


|-----------0--------------|-----------------------0--|
|--3-----------3--1--0-----|--0--------1--3-----------|
|--------5--------------2--|--------0-----------2-----|
|-----4--------------------|-----0-----------0--------|
|--5-----------------------|--------------------------|
|--------------------------|--3-----------2-----------|

 ___________________________  __________________________
|1.                          |2.
|--------5--7--8------------||--------5--7--8--------7--|
|--7--8--------------0------||--7--8-----------6--------|
|--------------------------*||--------------------7-----|
|-----------------7--------*||--------------------6-----|
|--------------6------------||--------------------------|
|-----------------------7---||--------------0-----------|


   V---------------------     VIII------------------
|--8--------------7--5--7--|--8----------8--12----12----|
|-----5-----5--------------|---------10-----------------|
|--------5-----------------|----------------------------|
|--------------7-----------|-----10---------------------|
|--0-----------------------|--8-------------------------|
|--------------------------|----------------------------|


   X-------------                 I-------------------
|--13-----------------------0--|--1--------------------|---------------------|
|------10------10--------------|--------------3--------|--5------3------1----|
|----------10---------9h-7-----|-----------2-----------|--4------2------0----|
|--0---------------0-----------|--------3--------------|--5------3------2----|
|------------------------------|-----1-----------------|--3------1------0----|
|------------------------------|-----------------------|---------------------|


|-----------0--1---------|-----------0--1---------|--5-----------------------|
|--------3---------------|--------3---------------|-----6-----6-----8h-6--8--|
|-----2------------------|-----2------------------|--------7-----------------|
|--0---------------------|--0---------------------|--0-----------0-----------|
|-------------------0----|-------------------0----|--------------------------|
|------------------------|------------------------|--------------------------|


   V------------            III---------------
|--5-----------6------5--|--5-----------3---------|--3-----------------0-----|
|-----7-----7------------|-----3-----3------------|-----5-----5-----6-----6--|
|--------5---------------|--------3---------------|--------2-----------------|
|------------------------|------------------------|--------------------------|
|--6---------------------|-------------------5----|--4-----------0-----------|
|------------------------|--3---------------------|--------------------------|


                            I----------
|--3-----------1-----0--|--1-----------------------|--------0----------------|
|-----2-----3-----------|-----1-----1--------------|-------------------------|
|--------0--------------|--------------------------|-----4-------3-----------|
|-----------------------|--------3--------2--0--2--|--3-------------2--0--2--|
|--1--------------------|--0-----------0-----------|-------------------------|
|-----------------------|--------------------------|--4----------3-----------|


|------------------------|---------------------------|-----------------------|
|--------3------1--0--1--|--3------------------------|--------0--0---0--0----|
|-----2------------------|-----2-----2--1------------|-----2-----2------2----|
|--0---------------------|--------3-----2----2-0-----|-----------------------|
|------------------------|-----------------------3-1-|--0--------0------0----|
|--2---------1-----------|--0------------------------|-----------------------|


|------------------------|------------------------|------------------------|
|--------0--0----0--0----|--------0--0----0--0----|--------0--0----0--0----|
|-----2-----2-------2----|-----2-----2-------2----|-----2-----2-------2----|
|------------------------|------------------------|------------------------|
|--0--------0------------|--0--------0-------0----|--0--------0------------|
|-------------------3----|------------------------|-------------------3----|


   V------
|--------5-8-7-5-7-|--8----0--1----0-------|------------------------|
|------6-----------|----------3-------3----|--------0--0----0--0----|
|----5-------------|------------------4----|-----2-----2-------2----|
|------------------|-----------------------|------------------------|
|--0---------------|----------2------------|--0--------0-------0----|
|------------------|------------------3----|------------------------|


                            VII----
|------------------------|--------7-10-8-7-8-|--10----10--12----10-------|
|--------0--0----0--0----|------9------------|------------0---------8----|
|-----2-----2-------2----|----7--------------|------------0---------7----|
|------------------------|-------------------|---------------------------|
|--0--------0------------|--0----------------|---------------------------|
|-------------------3----|-------------------|------------8---------7----|


|-----------7--7------7--7---|-----------7--7------------|--------0-3-2-0-2-|
|-------10-----10--------10--|-------10-----10-----0--0--|------1-----------|
|----------------------------|------------------------2--|----0-5-----------|
|----------------------------|---------------------------|------------------|
|--0-----------0---0-----0---|--0-----------0---0--------|--0---------------|
|----------------------------|------------------------3--|------------------|


                   III-    VII----------------
|--3----0--1----0-------|--------7-10-8-7-8-10--12-10-8-10-12-13-|
|----------3-------3----|------9---------------------------------|
|----------2-------4----|----7-----------------------------------|
|------------------3----|----------------------------------------|
|----------2------------|--0-------------------------------------|
|------------------4----|----------------------------------------|


   X-------------------  IX-
|--12--12--12--12----12--12----|--------0---------------|
|--10----------10--------9-----|-----0------------------|
|--10----------10--------10----|--5------------4--2--4--|
|--10----------10--------9-----|------------------------|
|------------------------------|--0---------------------|
|------------------------------|------------------------|


|--------0---------------|--------0---------------|--------------------------|
|-----0------------------|-----0------------------|--------------------------|
|--5------------4--2--4--|--5------------4--2--4--|--2-----------------------|
|------------------------|------------------------|-----2--2--2--2--2--2--2--|
|--0---------------------|--0---------------------|--------------------------|
|------------------------|------------------------|--0-----------------------|


|--3-------------2--0--2--|--3-------------------|--3--------2----0--------|
|-----------0-------------|-----------0----------|--------3----------3--1--|
|--------0----------------|--------0-------------|-----2-------------------|
|-----2-------------------|-----2----------------|--0----------------------|
|-------------------------|--3-------------------|-------------------------|
|--0----------------------|----------------------|-------------------------|


|-----------------------|-----------0-----------|-----------0--------------|
|--0---------------0----|--1--------------------|--3-----------3--1--0-----|
|-----------0-----------|--------0---------5----|--------5--------------2--|
|--------2--------------|-----2-----------------|-----4--------------------|
|-----2-----------------|--0--------------------|--5-----------------------|
|--0--------------------|-----------------------|--------------------------|


|-----------------------0--|-------5--7--8-----------|--3------------2--0--2--|
|--0--------1--3-----------|-7--8--------------0-----|-----------2------------|
|--------0-----------2-----|-------------------------|--------0---------------|
|-----0-----------0--------|----------------7--------|-----2------------------|
|--------------------------|-------------6-----------|--1---------------------|
|--3-----------2-----------|----------------------7--|------------------------|


|--3------------2--0--2--|--0-----------------------|--3-------------2--0--2--|
|-----------0------------|--------------4-----------|-----------0-------------|
|--------0---------------|-----5-----5--------------|--------0----------------|
|-----2------------------|--------4-----------------|-----2-------------------|
|--2---------------------|--2--------------0--------|-------------------------|
|------------------------|--------------------3--2--|--0----------------------|


|--3--------------------|-----------------------||
|-----------0-----------|--------------0--------||
|--------0--------------|-----------0-----------||
|-----2-----------------|--------4--------------||
|--3---------------2----|-----2-----------------||
|-----------------------|--0--------------------||