Adagio in G minor for Strings and Organ - Tomaso Albinoni (1678-1751)
1st version - by Jason Williamson, chords named, in Gm, hard stretches
2nd version - by Weed, duet, in Em
*******************************************************************************

Adagio in Gm by Albinoni transcribed by Jason Williamson

You may only use this file for private study, scholarship, or research. 
I transcribed this for solo classical guitar using the score for solo piano.
It was originally for organ and strings. 
  
I also made a MIDI file that is exactly what is written here. I didn't use a
MIDI from the internet. I manually typed in every note because I wanted an
accurate transcription. I only used powertab to make the MIDI and then export
to an HTML file.You need the latest version of Windows Media Player or
something equivelent to play the MIDI. It does not work under WMP version 6.
See tablature explanation and notes about the Composer at the bottom. 

[MIDI - http://alt.venus.co.uk/weed/music/classtab/taadagz.mid]

-------------------------------------------------------------------------------

ADAGIO IN G MINOR
Composed by Tomaso Albinoni (1671-1751)
Originally for Organ and Strings

Arranged and Transcribed For                           Standard A 440 Tuning:
Solo Classical Guitar                                1st String E  4th String D
By Jason Williamson (April 2003)                     2nd String B  5th String A
gitarremeister@yahoo.com                             3rd String G  6th String E


  Adagio

  = 66-76 BMP  Key: G minor  Time: 3/4


      Gm          Gm7/F      Eb    Eb5      Gm/D       Am/C  C
1
||--------3-----|----------|-3-5-6-6----3-|-3--------|-5-6-8-8---------|
||o-------------|----6-----|--------------|-3--3-----|-----------------|
||----3------0--|-3--------|-------8------|-3--------|-------5---------|
||----5---------|-5-----3--|--------------|----------|-----------------|
||o-------------|----------|-6--------6---|-5-----5--|-----------------|
||----3---------|-1--------|--------------|----------|-8--------8------|


  Bbm/C#        D5    D5 C6sus2 Gm/Bb      Gm     Gsus2   Am7     Am6
6                        |-3-|
|-6-5-6-6-----|-5-3-5-5--5-3-2-|-3--------|--------------|-------------|
|-------------|----------3-----|----------|-3--1---------|-------------|
|-------6-----|-------7--------|----0-----|-3--0-3-2-0---|-----2-------|
|-------------|-0--------------|-0--------|-5------0-----|-5-0-1-0-4---|
|-4--------4--|----------3-----|-1--------|-5------------|-3-------3-6-|
|-------------|----------------|-------3--|-3------3-----|-5-------5---|


    Ebm/C D5/A        D5      Gm/Bb       Eb5/Bb  Cm      Bbsus2/C
11                                        |-3-|           |-3-|
|-------------------|------------|-3--1-3---1---|---------------|
|---4-----3-1-------|------------|-3------4---3-|-4-3-1-3---1---|
|---------2-----3-2-|-2---(2)-0--|-0--3---------|-0---0---3---2-|
|---4---------------|-0-2-4-0-0--|--------------|---------------|
|---3-----------0---|---------1--|-1------1-----|-3-------3-----|
|-------------------|------------|--------------|---------------|


        F/A    Asus4   Bb  Bb/D    Bb7    Bbsus4  Gsus4   Am  A5  Am
15             |-3-|               |-3-|          |-3-|           |-3-|
|-------1----1-------|-------------------|--------------|---------------|
|-------1--4---3-4-1-|-3-1---1-----------|-4--3-4-1-3---|-1-------1-----|
|----------2---------|-----3-------2-3-0-|-3--0-------3-|-2-3-2-3---3-2-|
|-------3------------|-3---0-------------|-1------------|---------------|
|-------0------0-----|-1-----------1-----|--------------|-0-------0-----|
|--------------------|-------------------|-3------3-----|-----0---------|


   Bbmaj7 Eb    Dsus4/G                  B    Dm         Cm     Cm
19
|-------------|--------3-|-5-6-5-3-2-3-|-1-----1-3-4-3-1-|----8------3--|
|--3------4---|-3--------|-------------|-3-----3---------|-4------4-----|
|--2--3---0-2-|-0--------|-------------|-1--4--2---------|-0----5-5-----|
|--0--5-4-1---|-0--------|-------------|-----------------|--------5-----|
|--1----------|----------|-------------|-2-----0---------|-3------3-----|
|-------------|-3--------|-------------|-----------------|--------------|


  Gm     Bb     G#                Gm/D  Bb/D        F#/C
24 
|-----------3-|-----------------|-----------------|--------------------||
|-3------3----|-1-----1-3-4-3-1-|-----------------|-------------------o||
|-3----3-3----|-1--1------------|-3-----3-5-7-5-3-|-2-----2-3-5-3-2----||
|-5------3----|-1---------------|-5-----0---------|-4--0--4------------||
|--------1----|-----------------|-5---------------|-3-----3-----------o||
|----6--------|-4-----4---------|----6------------|--------------------||


      Gm                                       DMadd11/G
28 
|------------------|------------|------------|-------------------------|
|------------------|------------|------------|-------------------------|
|-----0------------|-0----------|-0-1-0----0-|-------------------------|
|-----0------------|-0----------|--------4---|-3-------3---------------|
|-----1------------|-1----------|------------|-5-6-5-6---6-5-6-5-3-2-3-|
|-----3------------|-3----------|------------|-3-----------------------|


  G5      Gm  Cm/G             Csus4                   Cm
32   
|-----------|----------------|-----------------------|-----------------|
|-----------|----------------|-----------------------|-----------------|
|-----------|------0-1-0---0-|-----------------------|--------------5--|
|-5----5--0-|-1----------4---|-3-1-0-3-1-0-1-1-0-----|-1----------5----|
|-5----5--1-|-3--------------|-3-----------------3-2-|-3------3-6------|
|-3----3--3-|-3--------------|-----------------------|------3----------|


  Eb/G                      Eb/G                          Eb/G  Eb/G
36  
|---------------3---------|----3-8-11-8------------8-11-|-15-----------|
|-4-----------4---4-------|-4-----------8--------8------|--------------|
|---5-------5-------5---5-|---------------8----8--------|--------------|
|-1---5---5-----------5---|-1---------------10----------|-13----1--1---|
|-------6-----------------|-----------------------------|--------------|
|-3-----------------------|-3---------------------------|-15----3--3---|


  Em/G	           Gm                        Gm6
39 
|----------------|-------------------------|---------------------------|
|----------------|-------------------------|---------------------------|
|-0----5-6-5-4-5-|-3-1-0-1-3-1-0-1-0-------|-0----------3----------3---|
|-2--------------|-------------------3-2-3-|-2----------2----------2---|
|----------------|-------------------------|---------------------------|
|-3--------------|-3-----------------------|-3----------3----------3---|


  Fm               Fmsus4                    Fm
42  
|-1--------------|-------------------------|-1-------------|
|-1--------------|-------------------------|-1-----------1-|
|-1----5-6-5-4-5-|-3-1-0-1-3-1-0-1-1-0-----|-1---------1---|
|-3--------------|-3-------------------3-2-|-3-------3-----|
|----------------|-------------------------|-------3-------|
|-1--------------|-1-----------------------|-1---4---------|


  Fm                        Fm                         Fm         FMa. Fm
45 
|-------------1-4-1-------|-----1-4-8-4---------8-13-|-16----------------|
|-----------1-------1-----|---1---------6---6-9------|-13----1----1----1-|
|-1-------1-----------1---|-1-------------5----------|-13----1----2----1-|
|---3---3---------------3-|--------------------------|-15----3----3----3-|
|-----3-------------------|--------------------------|-------------------|
|-1-----------------------|-1------------------------|-13----1----1----1-|


  D7             A#5/D                    G7     G5 Fsus2 Cm/Eb Cm
48   
|-2------------|-----1-------------------|-------------------|-------------|
|-1----1-3-4---|-4-3---4-4-3-3-1-1-0-0-1-|-0-1-3-3---------1-|-1-----1-----|
|-2------------|-2-----------------------|-------0-----------|-0-----------|
|-0------------|-0-----------------------|-3----------3----1-|-1-----------|
|--------------|-------------------------|-------------------|-3---------3-|
|--------------|-------------------------|-3----------3------|-------------|


  Eb/Bb          Eb/B           G#                       Eb6add4       
52 
|--------------|--------------|------------------------|-------------------|
|-1------1-----|-4------------|-1-3-4--4---------1-----|-1-----------------|
|-0------------|-0-----3------|-1----------------------|-1------0----------|
|-1------------|--------------|-1------1---------------|-1-----------------|
|-3----------3-|-1--------1---|------------------------|-------------------|
|--------------|--------------|-4-----------4----------|-3-------------3---|


  Dm/F          Ebm/F#        Dsus4/G Dsus4/G   Cm
56 					 [-3-]
|-----1---1-----|-------------|----------------|------------------------|
|-3-4-----------|-4-3-4-4-----|-3-1-3-3--3-1-0-|-1------1---------------|
|-2-------------|-------------|-------0--------|-0----------------------|
|---------3-----|-------4-----|----------------|-1----------------------|
|---------------|-------------|----------------|-3---------------3------|
|-1----------1--|-2--------2--|-3--------3-----|------------------------|


  Cm Csus4 Csus2  Csus2/D               Dsus4 Eb5   EbMa.    C/E
60  
|-3---1----------|------------------|-4---3--1-----|----------------------|
|-4---1-4---3--1-|-1-----3---0------|---0-3----4-3-|-3-------0---------1--|
|-5---------0----|-----0-1-0---1----|-1---0--------|-0---2--------0----0--|
|-5---3-1---0----|-0-3---------0--3-|-0------3-1-0-|-1-----------------2--|
|-3---------3--3-|------------------|----------1---|----------------------|
|----------------|------------------|--------------|---------0------------|


  Cm Eb   Eb         G#/F         Bb/D                      Gm        Eb7
                            |-3-|                                     [-3-]
64 
|-8--6-8-4---6---3-|-4--1-3---1---|-6---4---6----3--4---1-|-3------1--------|
|----------1-------|-1------4---3-|-----------------------|-----4-----3-4-1-|
|-5--3-5-1---3---0-|-1------------|-3---1---3--3-0--1---0-|-3---------------|
|-5----------------|-1------------|-0---------------------|-5---1--3--1-----|
|-6--6-6-----------|--------------|-----------------------|-----------------|
|------------------|-1------------|-----------------------|-----------------|


  Cmadd4    Bbsus2/C  Gm7/D              Gm+5/Bb         Bb/D       Dm/F
68  
|-1-----------------|-3------1---------|---------------|-------------------|
|---------------1---|------------3-----|-----4-------1-|------3------------|
|----2-----2--3-----|-3--------------3-|-0------2-3----|-3-----------------|
|-1-----------------|-3---3------0-----|-1-------------|-3--------3-0------|
|-3-----3-----3-----|-5----------------|-1-------------|-5---------------1-|
|-------------------|------------------|---------------|------------1------|


  Gm      Eb5    Bb5/F        Bb/D                 C5            C7sus4
72                                                        [-3-]
|---------------|------------|-6--6-5-3-----------|----3--3-----|---------4-|
|----4-----4----|-3----------|----------6-4-3-----|---------4---|-----------|
|-3-------------|-3----------|----------------5-3-|-0---------5-|-3---------|
|---------------|------------|-0------------------|-------------|-3-------3-|
|-1----0---1--3-|-1----------|--------------------|-3-----------|-3---------|
|-3-------------|-1----------|--------------------|-------------|------1----|


  Bb5   Dm       Fm/Bb        Eb5   Bb5         C5       G#         Eb
77      |-3-|
|-1-----1-------|------------------|-1-----------------|------------------|
|---------3-----|------4-----------|-----------------3-|-1----4---1-------|
|-3---------3---|-1----0------3----|-3-------3---0-----|-1-----------0----|
|----0--0-------|-3-------1---1----|-----------------0-|-1-----------1--1-|
|---------------|-1----------------|-------------3-----|------------------|
|---------------|----------------3-|------3------------|------------------|


   Fm       F5      Fm       Cm/Eb   G#/C     F5     C5         B    C5
 81 
|----------------|-----------3----|--4-------------|-3----------7----3-|
|--1--------1----|--1---4----1-4--|--1------0-1--3-|------------0----1-|
|--1-------------|--0----------0--|----------------|-5-----5-----------|
|------3-------0-|--1--------1----|----------------|-------5-----------|
|--------2--3----|---------3------|----------------|-------------------|
|--1--------1----|----------------|-----------1----|-------------------|


  C#5   Dm/F        Cm/Eb                       E7
85 
|-4---------------|--------8-|-10-11-10-8-7-8-|-6---------6-8-9-8-6---|
|-2-----3-4-6-4-2-|-1--------|----------------|-5---------5-----------|
|-----------------|-0--------|----------------|-6---------6-----------|
|-3-----3---------|-1--------|----------------|-5---------5-----------|
|-----------------|----------|----------------|------7----------------|
|-----1-----------|----------|----------------|-0---------0-----------|


  Fm             G#add6 Cm       Eb  Cm/Eb     C#     C#
89 
|-4--------------4--8-|-3------------3---8---|-------------4-------|
|----------6-----6----|------4---4-----------|-6-------6-8---8--6--|
|----------------5----|-5--------0---5-------|-6----6--------------|
|-3----3---6----------|-5------------5-------|-6-------------------|
|---------------------|-6--------6---6-------|-4-------4-----------|
|-1-------------------|----------------------|---------------------|


  Cm/G        Eb/G        Dm6/G G5              G#
92
|----------------3------|---------------------|--------------------|
|-4-----------4-6---6-4-|-3---------3-4-6-4-3-|-1------------------|
|-5------0--------------|-4-----0-------------|--------1-----------|
|-5---------------------|-3-------------------|-1------------------|
|-----------------------|-5-------------------|--------------------|
|-3-----------3---------|-3---------3---------|-4-------------4----|


  G#/G            Cm/Eb   Cmadd6/Bb Gsus4       B
95  
|----------------|----------------|-----------|-1--------1-|
|-1--------------|-1-3-4-4------4-|-3------0--|-3--------3-|
|-1--------0-----|--------------5-|-5---------|-1--------1-|
|------0-1-1-----|-1------------7-|-5---------|-3--------3-|
|----------------|----------------|-5---------|-2--------2-|
|-3-----------3--|--------------6-|-3---------|------------|


  Cm        C7           G6sus2  Dm/F Bbsus4       Eb5 C#m/E
99 
|---------|-3--------3-|------------|------------|---------------|
|-4-------|-5--------5-|--8------6--|-4--------4-|-4---2---------|
|-0----5--|-3--------3-|--9------7--|-3--------3-|-3-3----2-0----|
|-1-------|-5--------5-|--7---------|-1--------1-|-1---2---------|
|-3-------|-3--------3-|-10------8--|------------|-0-------------|
|---------|------------|------------|-3--------3-|---------------|


       Bb        Cm6/F#       GsBb2       B      Dm/B Csus4 Cm/Eb
104 
|--------------|-5--------5-|-5---------|-1--------1-|-1---------|
|------6-------|-4--------4-|---3-------|-3--------3-|-3----4----|
|------7-------|-5--------5-|-2-3--0----|-1--------2-|---0--5----|
|------0-------|------------|-----------|------------|-3---------|
|--------------|------------|-----------|-2--------2-|-3----6----|
|------6-------|-2--------2-|-3---------|------------|-----------|


  C#7         Gm/D        Cm6   C       C#7          Dsus4 D5 D7
                                                                |-3-|
109  
|-6--------6-|-6--10-----|-5-6-8-8-----|-6-5-6-6-----|-5---5-5--5-3-2---|
|-8--------8-|-8---------|-8-----------|-8-----------|-8-8---3--7-------|
|-9--------9-|-7---------|-8-----5-----|-9-----6-----|-7--------5-------|
|------------|-0------0--|-------------|-------------|-0--------0-------|
|------------|-----------|-------------|-------------|------------------|
|-9--------9-|-----------|-8--------8--|-9--------9--|------------------|


  Gm                 Gm/Bb                        G
114 
|-3----------------|-------------------------10-|-15-------------------*|
|------------------|---------------8-11---11----|----------------------*|
|-0--------------3-|-------------7-----12-------|----------------------*|
|-0------------5---|-5-------5-8----------------|----------------------*|
|-1----------5-----|---5---5--------------------|----------------------*|
|-3------3-6-------|-6---6----------------------|-15-------------------*|

 

Chord Explanation

C#7 = C sharp diminished 7th. Notice the  symbol for the Diminished chord.
** Note the / after the chord means to put the note after the slash in the
bass of that chord.
EXAMPLE: Gm+5/Bb = G minor Augmented 5th Chord with B Flat in the Bass. 

** Note: You need to hold the bass lines throughout the piece longer than the
MIDI sounds. You really just have to experiment with it. The MIDI files doesn't
hold the bass lines because it's only 1 track.

** Note: Some Chord names were omitted because it wasnt' very legible BUT I did
not remove the chord from the musical structure of this song. But adapted it
for playability for solo classical guitar. 

** Note: I was going to add left hand fingering for this piece but seeing how
everyone is different, I thought I'd leave that up to the performer. Just
because my fingerings might not be practical for everyone else. 

** Note: In cases such as measure 22, where a chord is played and then 2- 32nd
notes it's obvious you can't hold a chord with the same fingers that you play
the 32nd notes with. I only left them for chord idenity for the melody line.

** Note: If you see any errors feel free to drop me a line. Email address is at
the top. 

** Note: See Below for the Tablature legend including repeat signs which are
used once in this piece.

-------------------------------------------------------------------------------

Notes about the Composer: 

Tomaso Albinoni (1671-1751)

Tomaso Albinoni was the son of a wealthy paper merchant, Albinoni never needed
to look for the sort of court appointments or church positions that sustained
his colleagues. Albinoni produced over 50 Operas, a number of other stage
works, as well as over 40 solo cantatas. Bach found some of Albinoni's melodies
so compelling that he based several of his keyboard fugues on them. Most of
Albinoni's work is similar in sound and texture to that of his comtemporary
Vivaldi. Yet the "Adagio in G minor," the piece for which is most famous, is strikingly unlike his other compositions. Shortly after World War 2, an Italian musicologist Remo Giazatto discovered a sketchy score of the piece in a Dresden library, including only a bass line and bits of a violin part. Giazatto
reconstructed the piece for strings and organ.

-------------------------------------------------------------------------------

Tablature Legend

| - bar
|| - double bar
||o - repeat start
o|| - repeat end
*| - double bar (ending)

*******************************************************************************
*******************************************************************************

Adagio in G minor for Strings and Organ - Tomaso Albinoni (1678-1751)

- arranged in E minor as a guitar duet

***************************************************************************
amended by Weed - 14 August 2000 - weed@venus.co.uk                 
***************************************************************************
this came to me as 2 separate tabs - theme and organ part - as they both
had the same number of bars (measures) i patched them together and aligned
the bar-lines - but the notes won't necessarily line up - so take care!
***************************************************************************

1
e|--0--------------|--0--------------|--0-2-3-------0--|--0--------------|
B|--0--------------|--0--------------|-----------------|-----------------|
G|--0--------------|--0--------------|-----------------|-----------------|
D|-----------------|-----------------|-----------------|-----------------|
A|-----------------|-----------------|-----------------|-----------------|
E|-----------------|-----------------|-----------------|-----------------|
 |                                                                       |
e|-----------------|-----------------|-----------------|-----------------|
B|-----------------|-----------------|-------1----1----|--0----0----0----|
G|-----------------|-----------------|-------0----0----|--0----0----0----|
D|--2----2----2----|--0----0----0----|-------2----2----|--2----2----2----|
A|-----------------|-----------------|--3----3----3----|--2----2----2----|
E|-----------------|-----------------|-----------------|-----------------|


5
|--2-3-5----------|--3-2-3----------|--2-0-2-------0--|--0--------------|
|-----------------|-----------------|-----------------|--0--------------|
|-----------------|-----------------|-----------------|--0--------------|
|-----------------|-----------------|-----------------|-----------------|
|-----------------|-----------------|-----------------|-----------------|
|-----------------|-----------------|-----------------|-----------------|
|                                                                       |
|-------0----0----|-----------------|-----------------|-----------------|
|-------1----1----|-------2----2----|-------0----0----|-----------------|
|-----------------|-------0----0----|-------2----2----|-----------------|
|-----------------|-------2----2----|-------2----1----|--2----2----2----|
|--0----0----0----|--1----1----1----|--2----2----2----|-----------------|
|-----------------|-----------------|-----------------|-----------------|


9
|--7----5---3-2---0-|--0--------------|--8----7---5-3---2-|--2--------0----|
|-------------------|------------4----|-------------------|----------------|
|-------------------|-----------------|-------------------|----------------|
|-------------------|-----------------|-------------------|----------------|
|-------------------|-----------------|-------------------|----------------|
|-------------------|-----------------|-------------------|----------------|
|                                                                          |
|--0----------------|-----------------|--2----------------|----------------|
|-----------0-------|-----------------|--4--------3-------|--0-------------|
|--0--------0-------|--2----2----2----|--2--------4-------|--0-------------|
|-------------------|--4----4----4----|-------------------|-------2--------|
|-------------------|-----------------|-------------------|----------------|
|--0----------------|-----------------|-------------------|----------------|


13
|--12----10--12------10------|------------------|--10----8--10--7--8--5--|
|----------------13------12--|--13--------------|------------------------|
|----------------------------|------------------|------------------------|
|----------------------------|------------------|------------------------|
|----------------------------|------------------|------------------------|
|----------------------------|------------------|------------------------|
|                                                                        |
|--4-------------------------|----------0--5----|--2---------------------|
|--5-------------------------|------------------|--3---------------------|
|----------------------------|-------5----------|------------------------|
|----------------------------|------------------|--0---------------------|
|----------------------------|----0-------------|------------------------|
|--0-------------------------|------------------|------------------------|


16
|--7---------------|--8-----7--8--5--7-----|--5---------------|
|------------------|--8-----------------8--|------------------|
|------------------|--9--------------------|------------------|
|------------------|--10-------------------|------------------|
|------------------|-----------------------|------------------|
|------------------|-----------------------|------------------|
|                                                             |
|-------------3----|-----------------------|-------------5----|
|-------0--3-------|-----------------------|----------5-------|
|----0-------------|-----------------------|-------5----------|
|------------------|-----------------------|----4-------------|
|------------------|-----------------------|------------------|
|------------------|-----------------------|------------------|


19
|--7--------8----|--7------------12--|--14--15--14--12--11--12--|
|----------------|-------------------|--------------------------|
|----------------|-------------------|--------------------------|
|----------------|-------------------|--------------------------|
|----------------|-------------------|--------------------------|
|----------------|-------------------|--------------------------|
|                                                               |
|-----------------|----------3--7----|--------------------------|
|--5----5----5----|----0--5----------|--0-----------------------|
|------------5----|------------------|--0-----------------------|
|--5----5----7----|------------------|--------------------------|
|-----------------|------------------|--------------------------|
|-----------------|------------------|--0-----------------------|


22
|--10------13--12---10-|--8----------8---12-|------------------12--|
|----------------------|---------10---------|--12----------12------|
|----------------------|--------------------|----------12----------|
|----------------------|--------------------|----------------------|
|----------------------|--------------------|----------------------|
|----------------------|--------------------|----------------------|
|                                                                  |
|--4-------4------4----|--------------------|----------------------|
|--6-------6------5----|---------5----------|-----------0----------|
|--4-------4-----------|--------------------|----------------------|
|----------------------|--------------------|----------------------|
|----------------------|--------------------|----------------------|
|----------------------|----5---------------|----0-----------------|


25
|---------------7-8-7-5-|--3--------3-5-7-5-3-|--2--------2-3-5-3-2-|
|--10--------10---------|---------------------|---------------------|
|-----------------------|---------------------|---------------------|
|-----------------------|---------------------|---------------------|
|-----------------------|---------------------|---------------------|
|-----------------------|---------------------|---------------------|
|                                                                   |
|-----------------------|---------------------|---------------------|
|------1----------------|------0--------------|------4--------------|
|-----------------------|------0--------------|------2--------------|
|------3----------------|---------------------|---------------------|
|-----------------------|---------------------|------2--------------|
|-----------------------|------0--------------|---------------------|


28
|--0----------------|--0--------------|--0--------------|--0-2-3--------0--|
|--0----------------|--0--------------|--0--------------|------------------|
|--0----------------|--0--------------|--0--------------|------------------|
|-------------------|-----------------|-----------------|------------------|
|-------------------|-----------------|-----------------|------------------|
|-------------------|-----------------|-----------------|------------------|
|                                                                          |
|----------------0--|-----------------|-----------------|------------------|
|-------------0-----|-----------------|-----------------|--------1----1----|
|----------0--------|-----------------|-----------------|--------0----0----|
|----1--2-----------|--2----2----2----|--0----0----0----|--------2----2----|
|-------------------|-----------------|-----------------|--3-----3----3----|
|-------------------|-----------------|-----------------|------------------|


32
|--0--------------|--2-3-5----------|--3-2-3----------|--2-0-2--------0--|
|-----------------|-----------------|-----------------|------------------|
|-----------------|-----------------|-----------------|------------------|
|-----------------|-----------------|-----------------|------------------|
|-----------------|-----------------|-----------------|------------------|
|-----------------|-----------------|-----------------|------------------|
|                                                                        |
|-----------------|-------0----0----|-----------------|------------------|
|--0----0----0----|-------1----1----|-------2----2----|-------0----0-----|
|--0----0----0----|-----------------|-------0----0----|-------2----2-----|
|--2----2----2----|-----------------|-------2----2----|-------2----1-----|
|--2----2----2----|--0----0----0----|--1----0----0----|--2----2----2-----|
|-----------------|-----------------|-----------------|------------------|


36
|--0--------------|--7----5---3-2---0-|--0--------------|--8----7---5-3---2-|
|--0--------------|-------------------|------------4----|-------------------|
|--0--------------|-------------------|-----------------|-------------------|
|-----------------|-------------------|-----------------|-------------------|
|-----------------|-------------------|-----------------|-------------------|
|-----------------|-------------------|-----------------|-------------------|
|                                                                           |
|-----------------|--0----------------|-----------------|--2----------------|
|-----------------|-----------0-------|-----------------|--4--------3-------|
|-----------------|--0--------0-------|--2----2----2----|--2--------4-------|
|--2----2----2----|-------------------|--4----4----4----|-------------------|
|-----------------|-------------------|-----------------|-------------------|
|-----------------|--0----------------|-----------------|-------------------|


40
|--2--------0----|--12----10--12------10------|------------------|
|----------------|----------------13------12--|--13--------------|
|----------------|----------------------------|------------------|
|----------------|----------------------------|------------------|
|----------------|----------------------------|------------------|
|----------------|----------------------------|------------------|
|                                                                |
|----------------|--4-------------------------|----------0--5----|
|--0-------------|--5-------------------------|------------------|
|--0-------------|----------------------------|-------5----------|
|-------2--------|----------------------------|------------------|
|----------------|----------------------------|----0-------------|
|----------------|--0-------------------------|------------------|


43
|--10----8--10--7--8--5--|--7---------------|--8-----7--8--5--7-----|
|------------------------|------------------|--8-----------------8--|
|------------------------|------------------|--9--------------------|
|------------------------|------------------|--10-------------------|
|------------------------|------------------|-----------------------|
|------------------------|------------------|-----------------------|
|                                                                   |
|--2---------------------|-------------3----|-----------------------|
|--3---------------------|-------0--3-------|-----------------------|
|------------------------|----0-------------|-----------------------|
|--0---------------------|------------------|-----------------------|
|------------------------|------------------|-----------------------|
|------------------------|------------------|-----------------------|


46
|--5---------------|--7---------8----|--7-----------12--|
|------------------|-----------------|------------------|
|------------------|-----------------|------------------|
|------------------|-----------------|------------------|
|------------------|-----------------|------------------|
|------------------|-----------------|------------------|
|                                                       |
|-------------5----|-----------------|----------3--7----|
|----------5-------|--5----5----5----|----0--5----------|
|-------5----------|------------5----|------------------|
|----4-------------|--5----5----7----|------------------|
|------------------|-----------------|------------------|
|------------------|-----------------|------------------|


49
|--14--15--14--12--11--12--|--10------13--12---10-|--8----------8---12-|
|--------------------------|----------------------|---------10---------|
|--------------------------|----------------------|--------------------|
|--------------------------|----------------------|--------------------|
|--------------------------|----------------------|--------------------|
|--------------------------|----------------------|--------------------|
|                                                                      |
|--------------------------|--4-------4------4----|--------------------|
|--0-----------------------|--6-------6------5----|-------------5------|
|--0-----------------------|--4-------4-----------|--------------------|
|--------------------------|----------------------|--------------------|
|--------------------------|----------------------|--------------------|
|--0-----------------------|----------------------|----5---------------|


52
|------------------12--|---------------7-8-7-5-|--3--------3-5-7-5-3-|
|--12----------12------|--10--------10---------|---------------------|
|----------12----------|-----------------------|---------------------|
|----------------------|-----------------------|---------------------|
|----------------------|-----------------------|---------------------|
|----------------------|-----------------------|---------------------|
|                                                                    |
|----------------------|-----------------------|---------------------|
|-------0--------------|------1----------------|------0--------------|
|----------------------|-----------------------|------0--------------|
|----------------------|------3----------------|---------------------|
|----------------------|-----------------------|---------------------|
|-------0--------------|-----------------------|------0--------------|


55
|--2--------2-3-5-3-2-|--0----------------|--0------0--1-0---0-|
|---------------------|--0----------------|--0-------------4---|
|---------------------|--0----------------|--1-----------------|
|---------------------|-------------------|--0-----------------|
|---------------------|-------------------|--2-----------------|
|---------------------|-------------------|--------------------|
|                                                              |
|---------------------|----------------0--|--------------------|
|------4--------------|-------------0-----|--------------------|
|------2--------------|----------0--------|--------------------|
|---------------------|----1--2-----------|--------------------|
|------2--------------|-------------------|--------------------|
|---------------------|-------------------|-----0--------------|


58
|--------------------------|---------0--1-0---0-|--------------------------|
|--3-1-0-1-3-1-0-1-0-------|--0-------------4---|--------------------------|
|--------------------2-1-2-|--------------------|--------------------------|
|--------------------------|--------------------|--------------------------|
|--------------------------|--------------------|--------------------------|
|--------------------------|--------------------|--------------------------|
|                                                                          |
|--------------------------|--------------------|--------------------------|
|--------------------------|--------------------|--3-1-0-1-3-1-0-1-1-0-----|
|--------------------------|-------1------------|----------------------2-1-|
|--------------------------|-------0------------|--------------------------|
|--------------------------|--------------------|--------------------------|
|--------------------------|----0---------------|--------------------------|


61
|-------------------|--------------------|--0-------------|-------5--6-5-4-5-|
|-------------------|--------1--------1--|--1-----------1-|------------------|
|--2----------------|-----2--------2-----|--2-----------2-|------------------|
|-------------------|--2--------2--------|--2-----------2-|------------------|
|-------------------|--------------------|--------------0-|------------------|
|-------------------|--------------------|--------------0-|------------------|
|                                                                            |
|-------------------|--------------------|----------------|------------------|
|-------------------|--------------------|----------------|--2---------------|
|-------------2-----|--------------------|----------------|--0---------------|
|----------2--------|--------------------|----------------|--2---------------|
|----0--3--------3--|--------------------|----------------|--0---------------|
|-------------------|--------------------|----------------|--0---------------|


65
|--3-1-0-1-3-1-0-1-0-------|---------------|-------------------|
|--------------------3-2-3-|-------------2-|--3----------------|
|--------------------------|-------------0-|--2----------------|
|--------------------------|-------------2-|--3----------------|
|--------------------------|---------------|-------------------|
|--------------------------|---------------|-------------------|
|                                                              |
|--------------------------|--0------------|--------5--6-5-4-5-|
|--------------------------|---------------|-------------------|
|--------------------------|---------------|-------------------|
|--------------------------|---------------|-------------------|
|--------------------------|---------------|-------------------|
|--------------------------|---------------|-------------------|


68
|--------------------------|-------------1----|-------------2----|
|--------------------------|-------------3----|-------------0----|
|--------------------------|-------------2----|-------------2----|
|--------------------------|-------------0----|-------------1----|
|--------------------------|------------------|-------------2----|
|--------------------------|------------------|------------------|
|                                                                |
|--3-1-0-1-3-1-0-1-1-0-----|------------------|------------------|
|----------------------3-2-|--3--------3------|-----------0------|
|--------------------------|--------2---------|--------2---------|
|--------------------------|-----0------------|-----1------------|
|--------------------------|------------------|--2---------------|
|--------------------------|------------------|------------------|

71
|--------------------|--0--3--7--12--15-<7>--|-<5>-----------|--0------------|
|--0--------------0--|-----------------------|---------------|--0------------|
|--------------0-----|-----------------------|---------------|--0------------|
|-----------2--------|-----------------------|---------------|---------------|
|--------2-----------|-----------------------|---------------|---------------|
|-----0--------------|-----------------------|---------------|---------------|
|                                                                            |
|--------------------|-----------------------|---------------|---------------|
|--------------------|-----------------------|---------------|---------------|
|--------------------|-----------------------|----------0----|---------------|
|--------------------|-----------------------|----------2----|--2----2----2--|
|--------------------|-----------------------|----------3----|---------------|
|--------------------|-----------------------|----------0----|---------------|


75
|--0--------------|--0-2-3-------0--|--0--------------|--2-3-5----------|
|--0--------------|-----------------|-----------------|-----------------|
|--0--------------|-----------------|-----------------|-----------------|
|-----------------|-----------------|-----------------|-----------------|
|-----------------|-----------------|-----------------|-----------------|
|-----------------|-----------------|-----------------|-----------------|
|                                                                       |
|-----------------|-----------------|-----------------|-------0----0----|
|-----------------|-------1----1----|--0----0----0----|-------1----1----|
|-----------------|-------0----0----|--0----0----0----|-----------------|
|--0----0----0----|-------2----2----|--2----2----2----|-----------------|
|-----------------|--3----3----3----|--2----2----2----|--0----0----0----|
|-----------------|-----------------|-----------------|-----------------|


79
|--3-2-3----------|--2-0-2--------0--|--0------------|--7----5---3-2---0-|
|-----------------|------------------|--0------------|-------------------|
|-----------------|------------------|--0------------|-------------------|
|-----------------|------------------|---------------|-------------------|
|-----------------|------------------|---------------|-------------------|
|-----------------|------------------|---------------|-------------------|
|                                                                        |
|-----------------|------------------|---------------|--0----------------|
|-------2----2----|-------0----0-----|---------------|-----------0-------|
|-------0----0----|-------2----2-----|---------------|--0--------0-------|
|-------2----2----|-------2----1-----|--2----2----2--|-------------------|
|--1----0----0----|--2----2----2-----|---------------|-------------------|
|-----------------|------------------|---------------|--0----------------|


83
|--0-------------|--8----7---5-3---2-|--2--------0----|
|-----------4----|-------------------|----------------|
|----------------|-------------------|----------------|
|----------------|-------------------|----------------|
|----------------|-------------------|----------------|
|----------------|-------------------|----------------|
|                                                     |
|----------------|--2----------------|----------------|
|----------------|--4--------3-------|--0-------------|
|--2----2----2---|--2--------4-------|--0-------------|
|--4----4----4---|-------------------|-------2--------|
|----------------|-------------------|----------------|
|----------------|-------------------|----------------|


86
|--12----10--12------10------|------------------|--10----8--10--7--8--5--|
|----------------13------12--|--13--------------|------------------------|
|----------------------------|------------------|------------------------|
|----------------------------|------------------|------------------------|
|----------------------------|------------------|------------------------|
|----------------------------|------------------|------------------------|
|                                                                        |
|--4-------------------------|----------0--5----|--2---------------------|
|--5-------------------------|------------------|--3---------------------|
|----------------------------|-------5----------|------------------------|
|----------------------------|------------------|--0---------------------|
|----------------------------|----0-------------|------------------------|
|--0-------------------------|------------------|------------------------|


89
|--7--------------|--8-----7--8--5--7-----|--5--------------|--7--------8----|
|-----------------|--8-----------------8--|-----------------|----------------|
|-----------------|--9--------------------|-----------------|----------------|
|-----------------|--10-------------------|-----------------|----------------|
|-----------------|-----------------------|-----------------|----------------|
|-----------------|-----------------------|-----------------|----------------|
|                                                                            |
|-------------3---|-----------------------|-------------5---|----------------|
|-------0--3------|-----------------------|----------5------|--5----5----5---|
|----0------------|-----------------------|-------5---------|------------5---|
|-----------------|-----------------------|----4------------|--5----5----7---|
|-----------------|-----------------------|-----------------|----------------|
|-----------------|-----------------------|-----------------|----------------|


93
|--7-----------12--|--14--15--14--12--11--12--|--10------13--12---10-|
|------------------|--------------------------|----------------------|
|------------------|--------------------------|----------------------|
|------------------|--------------------------|----------------------|
|------------------|--------------------------|----------------------|
|------------------|--------------------------|----------------------|
|                                                                    |
|----------3--7----|--------------------------|--4-------4------4----|
|----0--5----------|--0-----------------------|--6-------6------5----|
|------------------|--0-----------------------|--4-------4-----------|
|------------------|--------------------------|----------------------|
|------------------|--------------------------|----------------------|
|------------------|--0-----------------------|----------------------|


96
|--8----------8---12-|------------------12--|---------------7-8-7-5-|
|---------10---------|--12----------12------|--10--------10---------|
|--------------------|----------12----------|-----------------------|
|--------------------|----------------------|-----------------------|
|--------------------|----------------------|-----------------------|
|--------------------|----------------------|-----------------------|
|                                                                   |
|--------------------|----------------------|-----------------------|
|---------5----------|----------0-----------|------1----------------|
|--------------------|----------------------|-----------------------|
|--------------------|----------------------|------3----------------|
|--------------------|----------------------|-----------------------|
|----5---------------|----0-----------------|-----------------------|


99
|--3--------3-5-7-5-3-|--2--------2-3-5-3-2-|--0----------------|
|---------------------|---------------------|--0----------------|
|---------------------|---------------------|--0----------------|
|---------------------|---------------------|-------------------|
|---------------------|---------------------|-------------------|
|---------------------|---------------------|-------------------|
|                                                               |
|---------------------|---------------------|----------------0--|
|------0--------------|------4--------------|-------------0-----|
|------0--------------|------2--------------|----------0--------|
|---------------------|---------------------|----1--2-----------|
|---------------------|------2--------------|-------------------|
|------0--------------|---------------------|-------------------|


102
|--0------0--1-0---0-|--------------------------|---------0--1-0---0-|
|--0-------------4---|--3-1-0-1-3-1-0-1-0-------|--0-------------4---|
|--1-----------------|--------------------2-1-2-|--------------------|
|--0-----------------|--------------------------|--------------------|
|--2-----------------|--------------------------|--------------------|
|--------------------|--------------------------|--------------------|
|                                                                    |
|--------------------|--------------------------|--------------------|
|--------------------|--------------------------|--------------------|
|--------------------|--------------------------|---------1----------|
|--------------------|--------------------------|---------0----------|
|--------------------|--------------------------|--------------------|
|------0-------------|--------------------------|----0---------------|


105
|--------------------------|-------------------|--------------------|
|--------------------------|-------------------|--------1--------1--|
|--------------------------|--2----------------|-----2--------2-----|
|--------------------------|-------------------|--2--------2--------|
|--------------------------|-------------------|--------------------|
|--------------------------|-------------------|--------------------|
|                                                                   |
|--------------------------|-------------------|--------------------|
|--3-1-0-1-3-1-0-1-1-0-----|-------------------|--------------------|
|----------------------2-1-|-------------2-----|--------------------|
|--------------------------|----------2--------|--------------------|
|--------------------------|----0--3--------3--|--------------------|
|--------------------------|-------------------|--------------------|


108
|--0------------|-------5--6-5-4-5-|--3-1-0-1-3-1-0-1-0-------|--------------|
|--1----------1-|------------------|--------------------3-2-3-|------------2-|
|--2----------2-|------------------|--------------------------|------------0-|
|--2----------2-|------------------|--------------------------|------------2-|
|-------------0-|------------------|--------------------------|--------------|
|-------------0-|------------------|--------------------------|--------------|
|                                                                            |
|---------------|------------------|--------------------------|--0-----------|
|---------------|--2---------------|--------------------------|--------------|
|---------------|--0---------------|--------------------------|--------------|
|---------------|--2---------------|--------------------------|--------------|
|---------------|--0---------------|--------------------------|--------------|
|---------------|--0---------------|--------------------------|--------------|


112
|-------------------|--------------------------|-----------1------|
|--3----------------|--------------------------|-----------3------|
|--2----------------|--------------------------|-----------2------|
|--3----------------|--------------------------|-----------0------|
|-------------------|--------------------------|------------------|
|-------------------|--------------------------|------------------|
|                                                                 |
|--------5--6-5-4-5-|--3-1-0-1-3-1-0-1-1-0-----|------------------|
|-------------------|----------------------3-2-|--3--------3------|
|-------------------|--------------------------|--------2---------|
|-------------------|--------------------------|-----0------------|
|-------------------|--------------------------|------------------|
|-------------------|--------------------------|------------------|


115
|-----------2------|--------------------|--0--3--7--12--15-<7>--|
|-----------0------|--0--------------0--|-----------------------|
|-----------2------|--------------0-----|-----------------------|
|-----------1------|-----------2--------|-----------------------|
|-----------2------|--------2-----------|-----------------------|
|------------------|-----0--------------|-----------------------|
|                                                               |
|------------------|--------------------|-----------------------|
|-----------0------|--------------------|-----------------------|
|--------2---------|--------------------|-----------------------|
|-----1------------|--------------------|-----------------------|
|--2---------------|--------------------|-----------------------|
|------------------|--------------------|-----------------------|


118
|-<5>------------|--0--------------||
|----------------|--0--------------||
|----------------|--0--------------||
|----------------|-----------------||
|----------------|-----------------||
|----------------|-----------------||
|                                  ||
|----------------|-----------------||
|----------------|-----------------||
|----------0-----|-----------------||
|----------2-----|--2----2----2----||
|----------3-----|-----------------||
|----------0-----|-----------------||