Carmencita by unknown - Moderato 2/4

Tab by andyxdack@yahoo.com - August 2006

(please email if problems or questions)


1    |       |          |       |          |       |         |       |
e|------------------|------------------|------------------|------------------|
B|-----------2------|-----------3------|-----------2------|------2---2---3---|
G|-----------2------|-----------1------|-----------2------|------------------|
D|-------2----------|-------2----------|-------2----------|------------------|
A|---0-----------1--|--h2--------------|---0-----------1--|--h2==============|
E|------------------|---------------0--|------------------|------------------|
LHF      2   3   1      2   3   1
             4                  4

5    |       |          |       |          |       |          |       |
e|---0--------------|------------------|------------------|------------------|
B|---2-------2------|-------2---0------|---2-------0------|-------0---0---3--| 
G|o----------2------|---------------2--|-----------1------|------------------|
D|o------2-------2--|------------------|-------2-------2--|------------------|
A|---0--------------|------------------|------------------|------------------|
E|------------------|---0--------------|---0--------------|---0--------------|
     3   1   3   1
             2

9    |       |          |       |          |       |
e|------------------|------------------|---0--------------|------------------|
B|---3-------0------|-------3---2---0--|-----------0------|-------2---2---3--|
G|-----------1------|------------------|---2---2-------1--|---2--------------|
D|-------2-------2--|-----------2---0--|-----------0------|------------------|
A|---2--------------|------------------|---4-----------2--|---4--------------|
E|------------------|---0--------------|------------------|------------------|

                                               cII========
13   |       |          |       |          |       |
e|---0--------------|-------5---4---5--|---7-------2------|-------5---4------|
B|---2-------2------|-------2---3---5--|---7-------3------|-------7---5---7--|
G|-----------2------|------------------|-------2-------2--|---------------5--|
D|-------2-------2--|------------------|---0--------------|---0--------------|
A|---0--------------|---0-------2---4--|------------------|------------------|
E|------------------|------------------|------------------|------------------|

             cV=====                    1.__________________________________
17   |       |          |       |          |       |          |       |
e|-----------5------|------------------|------------------|-----------------||
B|---5-------5------|-------3---2---0--|-----------0---1--|---2---2---2---3-||
G|---6-------5------|------------------|---2---2----------|----------------o||
D|-------7-------7--|-------4---2---0--|-----------0---2--|---2------------o||
A|------------------|------------------|---4--------------|-----------------||
E|---0--------------|---0--------------|------------------|-----------------||

  2.__________________________________
     |       |          |       |
e|------------------|-----------5-----||
B|------------------|-----------2-----||
G|--2---------------|-----------2-----||
D|-----------2------|-----------------||
A|--0---4--------4--|---0------0-----||
E|------------------|-----------------||