Dance of Miu

A Traditional Chinese Dance from the Clan of Miu

I found it in a classical guitar book which is published in China. It's a
very famous piece of music played on a Chinese music instrutment, the Pipa.
This is a simple version for guitar; the version played on the Pipa requires
advanced skills. Listen to the midi before you try to play it.

Should you have any questions ask weed or seadrop - seadrop@hongkong.com

14:26, 16th March, 2002


T 100

UڻR

4/4

             mf
E||-------5--5--8--10--10--8--|-------5--5--7--5--7-5----|
B||-------5--5----------------|-------5--5--5---------8--|
G||-------5--5----------------|-------5--5--5------------|
D||---------------------------|--------------------------|
A||--0------------------------|--0-----------------------|
E||---------------------------|--------------------------|


        mf f  f                        f  ff f  ff
-----5--5--5-------5-5------|-------------------3----|
-----5--5--5--8--8-----8----|-------5--5--5--5--0----|
-----5--5--5--7----------7--|-------5--5--5--5-------|
----------------------------|-------7--7--7----------|
--0-------------------------|------------------------|
----------------------------|--0---------------------|


        mf f
-----5--5--8--10--12--12-10-8--|-----5--5--7--5--7-5-------|
-----5--5--8-------------------|-----5--5--5---------8--5--|
-----5--5--9-------------------|-----5--5--5---------------|
-------------------------------|---------------------------|
--0----------------------------|--0------------------------|
--------------0----------------|--------------0------------|


     mf   f  fff                           mf f  ff fff
-----10--10--10--10-7--5--------|-------5--5--5--5--5----|
-----10--10--10-----10----8--5--|-------5--5--5--5--5----|
--------------------------------|-------5--5--5--5--5----|
--0-----------------------------|------------------------|
--------------------------------|--0---------------------|
--------------------0-----------|-------------------0----|



-------------------0-0------|--------------------------|
-----------1--3--3-----3-1--|--------------------------|
-----2--2-------------------|-----2--2--4--2--4--2--0--|
----------------------------|--------------------------|
--0-------------------------|--0-----------------------|
----------------------------|--------------------------|


                                      mf f  ff
---------------------------|------------------------|
---------------------------|------------------------|
-----2--2--2--0--2--2-0----|------------------------|
------------------------0--|-------2--2--2--2----5--|
--0------------------------|------------------------|
---------------------------|--0---------------------|



---------------------------|--------------------------|
-----------1--3--5--5-3----|--------------------------|
-----2--2---------------5--|-----2--2--4--2--4--2--0--|
---------------------------|--------------------------|
--0------------------------|--0-----------------------|
---------------------------|--------------------------|


        f  ff                        mf f ff
--------------------------|-------------------------|
-----3--3--3--0-----------|-------------------------|
-----2--2--2--2--2--0-----|-------2--2--2--2--2-----|
--0--------------------2--|-------2--2--2--2--2-----|
--------------------------|--0----------------------|
--------------------------|-------------------0--3--|



--5-----------5--8-----5--|--0-----------------------|
--------5-----5-----8-----|--------------1-----------|
-----5-----5--------------|--------2-----------2-----|
--------------------------|-----2-----2-----2-----2--|
--0-----------------------|--0-----------------------|
--------------------------|--------------------------|



---------------------------|--0-----------------------|
--3-----2--------1-3-1--3--|--------------------------|
-----0-----0---------------|--------2-----------------|
--0------------------------|-----2-----2--------------|
---------------------------|--0--------------0--------|
--------------0------------|--------------3-----0--3--|



--------------------------|--------------------------|
--3--------------1-----1--|--3-----------------------|
--------2-----------2-----|--------0-----2--0--------|
-----3-----3--------------|-----0-----0--------2--0--|
--0-----------------------|--------------------------|
--------------1-----------|--3-----------------------|


                                     f ff fff
--------------------------|------------------------|
--1--------3--0-----------|------------------------|
--------0--------2--0-----|-------2--2--2--2-------|
-----2-----------------2--|-------2--2--2--2-------|
--3-----------------------|--0---------------------|
--------------0-----------|-------------------0----|



--5--------8--10--12--8--12--|--10-------------------12--10--|
--------5--------------------|----------10-------------------|
-----5-----------------------|------10------10---------------|
-----------------------------|--0---------------0------------|
--0-----------0--------------|-------------------------------|
-----------------------------|-------------------------------|


                                        f   ff   fff
--8---------10--7------------|-------5--5--5--5--5----|
-------------------10--8--5--|-------5--5--5--5--5----|
---------9-------------------|-------5--5--5--5--5----|
-----10----------------------|------------------------|
--0--------------------------|--0---------------------|
----------------0------------|------------------------|


        f                                 f  f
-----5--5--8--10--10-12-12-10-8--|-----5--5--7--5--7--5-----|
-----5--5--5---------------------|-----5--5--5-----------8--|
-----5--5--5---------------------|-----5--5--5--------------|
---------------------------------|--------------------------|
--0------------------------------|--0-----------------------|
--------------0------------------|--------------0-----------|


         ff fff                           f
-----10--10--10--7---5--------|--------------------------|
-----10--10--10--10-----8--5--|-----3--3--3--0-----------|
------------------------------|-----2--2--2-----2--0-----|
--0---------------------------|--0--------------------2--|
------------------------------|--------------------------|
-----------------0------------|--------------0-----------|



------------------------|------------------------------0-3-|
------------------------|--------------1-3---------1-3-----|
------------------------|----------0-2---------------------|
--0----0--0-------------|----------------------0-2---------|
-------------2--0-------|------0-3---------0-3-------------|
-------------------3----|--0-3-----------------------------|



--5----------------|------------------||
--5----------------|------------------||
--5----------------|---the END -------||
-------------------|------------------||
--0----------------|------------------||
-------------------|------------------||



seadropseadrop
seadropseadrop@hotmail.com